MOTHER NATURE'S SON
written by Paul McCartney


Born a poor young country boy
Mother nature's son
All day long I'm sitting singing songs for everyone

Sit beside a mountain stream
See her waters rise
Listen to the pretty sound of music as she flies

Find me in my field of grass
Mother nature's son
Swaying daisies sing a lazy song beneath the sun

Mother Nature's son

Intro:
|---------2---------------2------|---------2----------------------|
|---------3---------------3------|---------3----------------------|
|-4---------------2--------------|-1------------------------------|
|--------------------------------|--------------------------------|
|--------------------------------|--------------------------------|
|--------------------------------|-----------------0--------------|

|-5---5---5---5---3---3---3---3--|-0---0-0 0---3---3p2-2-2-2-2-2--|
|-----3---3---3-------3---3---3--|-----3-3-3---3-------3-3-3-3-3--|
|-----2---2---2-------2---2---2--|-----2-2-2---2-------2-2-2-2-2--|
|-0---------------0--------------|-0---------------0--------------|
|--------------------------------|--------------------------------|
|--------------------------------|--------------------------------|

|-0h2-2---2-2-2---2h3-3---3-3-3--|-0h2-2-2 2---2-0-0h2-2-2-2---2--|
|-----3---3-3-3-------3---3-3-3--|-3---3-3-3---3-------3-3-3---3--|
|-----2---2-2-2-------2---2-2-2--|-2---2-2-2---2-------2-2-2---2--|
|-0---------------0--------------|-0---------------0--------------|
|--------------------------------|--------------------------------|
|--------------------------------|--------------------------------|


Verse:
|-2---2-2-2-2-2---2h3-3-3-3-3-3--|-3---3---3-3-3p2-2---2---2-2-2--|
|-----3-3-3-3-3-------3-3-3-3-3--|-----3---3-3-3-------3---3-3-3--|
|-----2-2-2-2-2-------2-2-2-2-2--|-----2---2-2-2-------2---2-2-2--|
|-0---------------0--------------|-0---------------0--------------|
|--------------------------------|--------------------------------|
|--------------------------------|--------------------------------|

|-----2---2-2-2-------2---2-2-2--|-----2---2-2-2-------2---2-2-2--|
|-----3---3-3-3-------3---3-3-3--|-----3---3-3-3-------3---3-3-3--|
|-4---------------2--------------|-1------------------------------|
|--------------------------------|--------------------------------|
|--------------------------------|--------------------------------|
|--------------------------------|-----------------0--------------|

|-----5-------5-------5-------5--|-----5-------5-------5-------5--|
|-2---2---3---3---2---2---3---3--|-2---2---3---3---2---2---3---3--|
|-----2-------2-------2-------2--|-----2-------2-------2-------2--|
|-----2-------2-------2-------2--|-----2-------2-------2-------2--|
|-0-------0-------0-------0------|-0-------0-------0-------0------|
|--------------------------------|--------------------------------|

|-2---2---2-3p2---1---1---1-3/5--|-3---3---3-5-3---2---2---2-2-2--|
|-----3---3-3-3-------1---1------|-----3---3---3-------3---3-3-3--|
|-----2---2-2-2-------2---2------|-----4---4---4-------2---2-2-2--|
|-0---------------0--------------|-0---------------0--------------|
|--------------------------------|--------------------------------|
|--------------------------------|--------------------------------|

|-2---2---2-3p2---1---1---1-3/5--|-3---3---3-5-3---2---2---2-2-2--|
|-----3---3-3-3-------1---1------|-----3---3---3-------3---3-3-3--|
|-----2---2-2-2-------2---2------|-----4---4---4-------2---2-2-2--|
|-0---------------0--------------|-0---------------0--------------|
|--------------------------------|--------------------------------|
|--------------------------------|--------------------------------|


Chorus:
|--------------------------------|-------------------------2---3--|
|--------------------------------|-------------------------3---3--|
|--------------------------------|-------------------------2---2--|
|--------------------------------|--------------------------------|
|--------------------------------|--------------------------------|
|--------------------------------|--------------------------------|

|-5-------2-------3-------5------|-7-------3-------5--------------|
|-----3-------3-------3-------3--|-----8-------3-------7-----7-7--|
|-----2-------2-------2-------2--|-----7-------4-------7-----7-7--|
|-0-------0-------0-------0------|-0-------0-------0-------0------|
|--------------------------------|--------------------------------|
|--------------------------------|--------------------------------|

|-5-------2-------3-------5------|-7-------3-------5---5-5---7-5--|
|-----3-------3-------3-------3--|-----8-------3---7---7-7---7-7--|
|-----2-------2-------2-------2--|-----7-------4---7---7-7---7-7--|
|-0-------0-------0-------0------|-0-------0-------0-------0------|
|--------------------------------|--------------------------------|
|--------------------------------|--------------------------------|

|-5---5-5---7-5---5---5-5---7-5--|-7-------5-------3---3-3---5-3--|
|-7---7-7---7-7---7---7-7---7-7--|-----7-------7---3---3-3---3-3--|
|-6---6-6---6-6---5---5-5---5-5--|-----5-------5---4---4-4---4-4--|
|-0-------0-------0-------0------|-0-------0-------0-------0------|
|--------------------------------|--------------------------------|
|--------------------------------|--------------------------------|

|-3---3-3---5-3---2---2-2-2-2-2--|-2---2-2-2-2-2------------------|
|-3---3-3---3-3---3---3-3-3-3-3--|-3---3-3-3-3-3------------------|
|-3---3-3---3-3---2---2-2-2-2-2--|-2---2-2-2-2-2------------------|
|-0-------0-------0--------------|-0------------------------------|
|--------------------------------|--------------------------------|
|--------------------------------|--------------------------------|