HAPPINESS IS A WARM GUN
written by John Lennon


Intro:
|-3---------------|-2---------------|-2---------------|-0---------------|
|-----------1-----|-----------1-----|-----------0-----|-----------0-----|
|-------2---------|-------2---------|-------0---------|-------0---------|
|-----2-------2---|-----2-------2---|-----2-------2---|-----2-------2---|
|-0---------------|-0---------------|-2---------------|-2---------------|
|---------0-------|---------0-------|---------0-------|---------0-------|

|-3---------------|-2---------------|-2---------------|-0---------------|
|-----------1-----|-----------1-----|-----------0-----|-----------0-----|
|-------2---------|-------2---------|-------0---------|-------0---------|
|-----2-------2---|-----2-------2---|-----2-------2---|-----2-------2---|
|-0---------------|-0---------------|-2---------------|-2---------------|
|---------0-------|---------0-------|---------0-------|---------0-------|


Am7 Am6 Em9 Em
She's not a girl who misses much
Am7 Am6 Em9 Em
Do do do do do do, Oh yeah

Dm
She's well acquainted with the touch of a velvet hand
Am
Like a lizard on a window pane
Dm Am
The man in the crowd with the multicolored mirrors on his hobnail boots
Dm Am
Lying with his eyes while his hands are busy working overtime
Dm Am
A soap impression of his wife which he ate and donated to the national trust

A7
I need a fix cause I'm going down
A7
Down to the bits that I've left uptown
C Am
I need a fix cause I'm going down

A7 C
Mother Superior jump the gun
A7 G
Mother Superior jump the gun (repeat x3)

C Am F G
Happiness is a warm gun
C Am F G
Happiness is a warm gun, mama
C Am7 F G
When I hold you in my arms
C Am7 F G
And I feel my finger on your trigger
C Am7 F G
I know nobody can do me no harm, because

Happiness is a warm gun mama
Happiness is a warm gun yes it is
Happiness is a warm, yes it is, Gun
Well don't you know that happiness is a warm gun mama