DIG A PONY
written by John Lennon


INTRO (REPEAT 2X):
|-------------------------|-------------------------|
|-------------------------|-------------------------|
|-------------------------|-------------------7-----|
|-------------------5-----|----------7----9-------9-|
|----------5----7-------7-|-5---/9------------------|
|-3---/7------------------|-------------------------|

|-------------------------|-------------------------|
|-------------------------|-------------------------|
|-------------------------|-------------------------|
|-------------------------|------7------------------|
|-----------------------7-|-8h9------9----7-------7-|
|-5----5---5----8---9-----|-------------------8h9---|


A F#m
I dig a pony
Bm G7
Well you can celebrate anything you want
Bm G E
Yes you can celebrate anything you want
Oh

I do a road hog
Well you can penetrate any place you go
Yes you can penetrate any place you go
I told you so

G D A
All I want is you
G D A
Everything has got to be just like you want it to
Because

I pick a moon dog
Well you can radiate everything you are
Yes you can radiate everything you are
Oh now

I roll a stoney
Well you can imitate everyone you know
Yes you can imitate everyone you know
I told you so

All I want is you
Everything has got to be just like you want it to
Because

I feel the wind blow
Well you can indicate everything you see
Yes you can indicate anything you see
Oh now

I Laurie Laurie
Well you can syndicate any boat you row
Yes you can syndicate any boat you row
I told you so

All I want is you
Everything has got to be just like you want it to
Because