DEAR PRUDENCE
written by John Lennon


Dear Prudence, won't you come out to play
Dear Prudence, greet the brand new day
The sun is up, the sky is blue
It's beautiful and so are you
Dear Prudence won't you come out and play

Dear Prudence open up your eyes
Dear Prudence see the sunny skies
The wind is low the birds will sing
that you are part of everything
Dear Prudence won't you open up your eyes?

Look around round
Look around round round
Look around

Dear Prudence let me see you smile
Dear Prudence like a little child
The clouds will be a daisy chain
So let me see you smile again
Dear Prudence won't you let me see you smile?


*Drop D Tuning*

INTRO:
|-14-----------------------------|-12-----------------------------|
|---------------------12---------|---------------------10---------|
|-------------14-----------------|-------------12-----------------|
|---------0---------------0------|---------0---------------0------|
|-0------------------------------|-0------------------------------|
|-----------------0--------------|-----------------0--------------|

|-10-----------------------------|-8------------------------------|
|---------------------10---------|---------------------8----------|
|-------------11-----------------|-------------9------------------|
|---------0---------------0------|---------0---------------0------|
|-0------------------------------|-0------------------------------|
|-----------------0--------------|-----------------0--------------|

|-7------------------------------|-5------------------------------|
|---------------------8----------|---------------------5----------|
|-------------7------------------|-------------6------------------|
|---------0---------------0------|---------0---------------0------|
|-0------------------------------|-0------------------------------|
|-----------------0--------------|-----------------0--------------|

|-3------------------------------|-3------------------------------|
|---------------------5----------|---------------------5----------|
|-------------5------------------|-------------5------------------|
|---------0---------------0------|---------0---------------0------|
|-0------------------------------|-0------------------------------|
|-----------------0--------------|-----------------0--------------|



VERSE (REPEAT):
|-2------------------------------|-2------------------------------|
|---------------------3----------|---------------------3----------|
|-------------2------------------|-------------2------------------|
|---------0---------------0------|---------0---------------0------|
|-0------------------------------|-3------------------------------|
|-----------------0--------------|-----------------0--------------|

|-2------------------------------|-2------------------------------|
|--------------------3-----------|---------------------3----------|
|-------------0------------------|-------------0------------------|
|---------0---------------0------|---------0---------------0------|
|-2------------------------------|-1------------------------------|
|-----------------0--------------|-----------------0--------------|


FILL:
|-0------------------------------|-3------------------------------|
|---------------------1----------|---------------------3----------|
|-------------0------------------|-------------0------------------|
|---------2---------------2------|---------0---------------0------|
|-3---------------3--------------|--------------------------------|
|--------------------------------|-5---------------5--------------|


FILL 2 (REPEAT):
|-2------------------------------|-3------------------------------|
|---------------------3----------|---------------------3----------|
|-------------2------------------|-------------4------------------|
|---------0---------------0------|---------0---------------0------|
|-0------------------------------|-0------------------------------|
|-----------------0--------------|-----------------0--------------|

|-5------------------------------|-3------------------------------|
|---------------------5----------|---------------------3----------|
|-------------6------------------|-------------4------------------|
|---------0---------------0------|---------0---------------0------|
|-0------------------------------|-0------------------------------|
|-----------------0--------------|-----------------0--------------|


FILL 2 OUTRO:
|-1------------------------------|-4------------------------------|
|---------------------1----------|---------------------4----------|
|-------------2------------------|-------------5------------------|
|---------0---------------0------|---------0---------------0------|
|-0------------------------------|-0------------------------------|
|-----------------0--------------|-----------------0--------------|

|-3------------------------------|
|---------------------3----------|
|-------------4------------------|
|---------0---------------0------|
|-0------------------------------|
|-----------------0--------------|


Outro:
|-14-----------------------------|-12-----------------------------|
|---------------------12---------|---------------------10---------|
|-------------14-----------------|-------------12-----------------|
|---------0---------------0------|---------0---------------0------|
|-0------------------------------|-0------------------------------|
|-----------------0--------------|-----------------0--------------|

|-10-----------------------------|-8------------------------------|
|---------------------10---------|---------------------8----------|
|-------------11-----------------|-------------9------------------|
|---------0---------------0------|---------0---------------0------|
|-0------------------------------|-0------------------------------|
|-----------------0--------------|-----------------0--------------|

|-7------------------------------|-5------------------------------|
|---------------------8----------|---------------------5----------|
|-------------7------------------|-------------6------------------|
|---------0---------------0------|---------0---------------0------|
|-0------------------------------|-0------------------------------|
|-----------------0--------------|-----------------0--------------|

|-3------------------------------|-3------------------------------|
|---------------------5----------|---------------------5----------|
|-------------5------------------|-------------5------------------|
|---------0---------------0------|---------0---------------0------|
|-0------------------------------|-0------------------------------|
|-----------------0--------------|-----------------0--------------|