BECAUSE
written by John Lennon


Ahh...
Because the world is round
It turns me on
Because the world is round
Ahh...

Because the wind is high
It blows my mind
Because the wind is high
Ahh...

Love is all, love is new
Love is all, love is you

Because the sky is blue
It makes me cry
Because the sky is blue
Ahh...


INTRO:
|--------------------------------|--------------------------------|
|-------------5------------------|-------------5------------------|
|---------6-------6--------------|---------6-------6--------------|
|-----6---------------6-------6--|-----6---------------6-------6--|
|-4-----------------------7------|-4-----------------------7------|
|--------------------------------|--------------------------------|

|--------------------------------|--------------------------------|
|-------------4------------------|-------------4------------------|
|---------6-------6--------------|---------5-------5--------------|
|-----7---------------7-------4--|-----6---------------6-------6--|
|-6-----------------------7------|-6------------------------------|
|--------------------------------|-------------------------4------|

|--------------------------------|--------------------------------|
|-------------5------------------|-------------5------------------|
|---------6-------6--------------|---------6-------6--------------|
|-----7---------------7-------7--|-----6---------------6-------6--|
|-0-----------------------7------|-4-----------------------4------|
|--------------------------------|--------------------------------|

|--------------------------------|--------------------------------|
|-------------8------------------|-------------7------------------|
|---------6-------6--------------|---------6----------------------|
|-----5---------------5-------5--|-----5--------------------------|
|-0-----------------------7------|-0------------------------------|
|--------------------------------|--------------------------------|

|--------------------------------|--------------------------------|
|-------------7------------------|-------------7---6--------------|
|---------7-------7--------------|---------7----------------------|
|-----7---------------7-------7--|-----6--------------------------|
|-5-----------------------9------|-5------------------------------|
|--------------------------------|--------------------------------|


VERSE: (x2)
|--------------------------------|--------------------------------|
|-------------5------------------|-------------5------------------|
|---------6-------6--------------|---------6-------6--------------|
|-----6---------------6-------6--|-----6---------------6-------6--|
|-4-----------------------7------|-4-----------------------7------|
|--------------------------------|--------------------------------|

|--------------------------------|--------------------------------|
|-------------4------------------|-------------4------------------|
|---------6-------6--------------|---------5-------5--------------|
|-----4*--------------4*------4--|-----6---------------6-------6--|
|-6-----------------------7------|-6-----------------------6*-----|
|--------------------------------|--------------------------------|

|--------------------------------|--------------------------------|
|-------------5------------------|-------------5------------------|
|---------6-------6--------------|---------6-------6--------------|
|-----7---------------7-------7--|-----6---------------6-------6--|
|-0-----------------------7------|-4-----------------------4------|
|--------------------------------|--------------------------------|

|--------------------------------|--------------------------------|
|-------------8------------------|-------------7------------------|
|---------6-------6--------------|---------6----------------------|
|-----5---------------5-------5--|-----5--------------------------|
|-0-----------------------7------|-0------------------------------|
|--------------------------------|--------------------------------|

|--------------------------------|--------------------------------|
|-------------7------------------|-------------7---6--------------|
|---------7-------7--------------|---------7----------------------|
|-----7---------------7-------7--|-----6--------------------------|
|-5-----------------------9------|-5------------------------------|
|--------------------------------|--------------------------------|


BRIDGE:
|--------------------------------|--------------------------------|
|-------------2------------------|-------------2------------------|
|---------3-------3--------------|---------3-------3--------------|
|-----4---------------4-------4--|-----4---------------4-------4--|
|-------------------------4------|-------------------------6------|
|-2------------------------------|-2------------------------------|

|--------------------------------|-----------------4--------------|
|-------------4------------------|-------------4------------------|
|---------5-------5--------------|---------5----------------------|
|-----4---------------4-------4--|-----4--------------------------|
|-------------------------7------|--------------------------------|
|-4------------------------------|-4------------------------------|


REPEAT VERSE (x2)