AND I LOVE HER
written by Paul McCartney


Intro:
F#m E
|-----------------------------------------|
|-----------------------------------------|
|-----------------------------------------|
|----2--1----------------2--1-------------|
|-2--------4----------2--------4----------|
|-----------------------------------------|

F#m C#m
I give her all my love
F#m C#m
That's all I do
F#m C#m
And if you saw my love
A B
You'd love her too
E
I love her

|-------9-----------9-----------9-----------9-----|
|----10----10----10----10----9-----9-----9-----9--|
|-11----------11----------9-----------9-----------|
|-------------------------------------------------|
|-------------------------------------------------|
|-------------------------------------------------|

|-------9-----------9-----------9-----------9-----|
|----10----10----10----10----9-----9-----9-----9--|
|-11----------11----------9-----------9-----------|
|-------------------------------------------------|
|-------------------------------------------------|
|-------------------------------------------------|

|-------9-----------9-----------9-----------9-----|
|----10----10----10----10----9-----9-----9-----9--|
|-11----------11----------9-----------9-----------|
|-------------------------------------------------|
|-------------------------------------------------|
|-------------------------------------------------|

|-------9-----------9-----------11----------11----|
|----10----10----10----10----10----10----10----10-|
|-9-----------9-----------11----------11----------|
|-------------------------------------------------|
|-------------------------------------------------|
|-------------------------------------------------|

|-------9-----------9-----------9-----------9-----|
|----9-----9-----9-----9-----9-----9-----9-----9--|
|-9-----------9-----------9-----------9-----------|
|-------------------------------------------------|
|-------------------------------------------------|
|-------------------------------------------------|

She gives me everything
And tenderly
The kiss my lover brings
She brings to me
And I love her

C#m B C#m G#m
A love like ours, could never die
C#m G#m B B7
As long as I have you near me


Bright are the stars that shine
Dark is the sky
I know this love of mine
Will never die
And I love her

Guitar Solo (key change)
Gm Dm Gm Dm
|-------------------------------------------------|
|-------------------------------------------------|
|-------------9-7---10----------------9-\7--------|
|-----5-7-8------------------5--7--9--------------|
|-------------------------------------------------|
|-------------------------------------------------|

Gm Dm Bb C
|-------------------------------------------------|
|-------------------------------------------------|
|-------------9--7-/10-------10-7-----------------|
|----5--7-8------------------------8--7-\5--------|
|---------------------------------------------3-3-|
|-------------------------------------------------|

F
|-------------------------------------------------|
|-------------------------------------------------|
|-------------------------------------------------|
|---/7--------------------------------------------|
|-5---------------3-------------------------------|
|--------------------5-3-1-/3---------------------|

Gm Dm
Bright are the stars that shine
Gm Dm
Dark is the sky
Gm Dm
I know this love of mine
Bb C
Will never die
F
And I love her

Gm F
|-----------------------------------------|
|-----------------------------------------|
|-----------------------------------------|
|----3--2----------------3--2-------------|
|-3--------5----------3--------5----------|
|-----------------------------------------|


Gm D
|-----------------------------------------|
|-----------------------------------------|
|-----------------------------------------|
|----3--2----------------3--2-------------|
|-3--------5----------3--------5----------|
|-----------------------------------------|