A HARD DAY'S NIGHT
written by John Lennon


Intro: Fadd9 (103213)

G C9 G F G
It's been a hard days night, and I've been workin' like a dog
G C9 G F G
It's been a hard days night, I should be sleepin' like a log
C D
But when I get home to you I find the things that you do
G C9 G
They make me feel alright

You know I work all day, to get you money, to buy you things
And it's worth it just to hear you say, you're gonna give me everything
So why on earth should I moan, cause when I get you alone
You know I'll feel OK

Bm Em Bm
When I'm home, everything seems to be right
G Em C D
When I'm home, feeling you holding me tight, tight, yeah

It's been a hard days night, and I've been workin' like a dog
It's been a hard days night, I should be sleepin' like a log
But when I get home to you I find the things that you do
They make me feel alright

Guitar Solo:
|--------------------------------------------------|
|--------------------------------------------------|
|--------------------------------------------------|
|---------------------------3---3---3---3----------|
|---------1--3--1-/5-----3h5-3h5-3h5-3h5--3p1------|
|-3-----3-------------------------------------3--3-|

So why on earth should I moan, cause when I get you alone
You know I'll feel OK

When I'm home, everything seems to be right
When I'm home, feeling you holding me tight, tight, yeah

It's been a hard days night, and I've been workin' like a dog
It's been a hard days night, I should be sleepin' like a log
But when I get home to you I find the things that you do
Will make me feel alright
You know I feel alright
You know I feel alright

Outro:
|-3-----------1-----------3-----------1----------|
|----1-----1-----1-----1-----1-----1-----1-----1-|
|-------2-----------2-----------2-----------2----|
|------------------------------------------------|
|------------------------------------------------|
|------------------------------------------------|